Here's a demonstration and easy tab of The Beatles - Sgt. Pepper for a 4 string CBG. Tuned to the key of open G. Strings are tuned DGbd. I'm using a 4 string...

Views: 168

Comment

You need to be a member of Cigar Box Nation to add comments!

Join Cigar Box Nation

Comment by Barry Potter on January 4, 2013 at 7:45pm

Oh thanx Ncat. Sgt Pepper's Fluffy Cat Band!

Comment by Nancy kat on January 4, 2013 at 5:51pm

Love it B.P. U still are the wizard!! Meowwwwww ^^

Comment by Barry Potter on January 4, 2013 at 12:03pm

Thanks for the compliments all!  Yeah James once you understand tab its actually pretty simple.  It always reminds me of painting by numbers! HaHa. 

Comment by James on January 4, 2013 at 9:57am

i just figured out tab, i think, lol,  i need to try playing  with out a slide, this looks like fun !!!   great  instructional !!!

Comment by wes carl on January 4, 2013 at 6:39am

agree with John & Silent *****

Comment by Barry Potter on January 3, 2013 at 5:43pm

Glad u dig UJ. Thanks for the comment.

Comment by Uncle John on January 3, 2013 at 5:28pm

Wow, thanks for tabbing that out and a good lesson.   Sure sounds good.

Comment by Barry Potter on January 3, 2013 at 5:21pm

INTRO
    A                                                                             C
---2------2---4---7-7-----------2---2---4---7-7----------5-----------5--8--(10)--------
---2------------------------------2---------------------------5-----5--8------------8-6-8----
---2------------------------------2---------------------------5-----------------------------7-\-
---2------------------------------2---------------------------5---------------------------------

---3-------
---0-------
---0-------
---5-------

It was twenty years......
-0---2-----5-----0-----0---2---5--0--2--2--5--8----0--5-8--0--
-0---2-----5-----0-----0---2---5--0--2--2--5--5----0--5-5--0--
-0---2-----5-----0-----0---2---5--0--2--2--5--5----0--5-5--0--
-0---2-----5-----0-----0---2---5--0--2--2--5--5----0--5-5--0---

Horn section
--5--(10)----5----7----------------------------
--5--(10)----5----7---------------------------
--5--(10)----5----7----------------------------
--5--(10)----5----7----------------------------

We're Sgt Peppers lonely hearts....
----0--3---5---0--5--0------------------------
----0--3---5---0--5--0------------------------
----0--3---5---0--5--0------------------------
----0--3---5---0--5--0--3--5--------------------
...sit back and let the evening go.
----0--3---5---0--5--2----7--------------------
----0--3---5---0--5--2----7--------------------
----0--3---5---0--5--2----7--------------------
----0--3---5---0--5--2----7--------------------

Sgt Peppers Lonely, Sgt peppers Lonely...
----5-----0-------2--------5--0---------------------
----5-----0-------2--------5--0---------------------
----5-----0-------2--------5--0--------------------
----5-----0-------2--------5--0-------------------

Its wonderful to be here..... Same as Horn section

The Essential Pages

New to Cigar Box Nation? How to Play Cigar Box GuitarsFree Plans & How to Build Cigar Box GuitarsCigar Box Guitar Building BasicsCigar Box Guitar Parts Store

Site Sponsor

Recommended Links & Resources

Forum

Fretwoods

Started by Brent Kasl in Building Secrets, Tips, Advice, Discussion. Last reply by Southpaw yesterday. 4 Replies

Pickup Depth

Started by Brent Kasl in Building Secrets, Tips, Advice, Discussion. Last reply by Taffy Evans yesterday. 1 Reply

How to Get Your Own Music on Spotify

Started by Shane Speal shanespeal.com in Feature Articles on Thursday. 0 Replies

Volume/Tone Pots

Started by Brent Kasl in Building Secrets, Tips, Advice, Discussion. Last reply by Paul Craig on Wednesday. 8 Replies

s/s lm386 draw amp,

Started by GARAGE HERMIT in Building Secrets, Tips, Advice, Discussion. Last reply by GARAGE HERMIT on Wednesday. 9 Replies

Nut milling

Started by Lothar Ahnert in Building Secrets, Tips, Advice, Discussion. Last reply by Taffy Evans on Wednesday. 3 Replies

Latest Activity

Dave Lynas commented on Anthony Insetta's video
Thumbnail

December 15, 2019

"You both did good Anthony and the Pick! "
4 minutes ago
Dave Lynas liked Anthony Insetta's video
5 minutes ago
Dave Lynas commented on Dave Lynas's video
Thumbnail

Texas Special

"Yup Uncle. It is growing a bit calloused to my general malaise. Numb to politics."
10 minutes ago
Dennis "Denbo" Goodinson liked Dave Lynas's video
1 hour ago
Downtown Vinnie posted a video

Subconscious Tug O War

Visions of left field
3 hours ago
the anonymous pick commented on Anthony Insetta's video
Thumbnail

December 15, 2019

"swampy unpluggy  yummy"
3 hours ago
James Pobog posted a discussion

Granddaughters CBG

Fitment stage...…See More
5 hours ago
Uncle John commented on Anthony Insetta's video
Thumbnail

December 15, 2019

"Enjoying that swampy and sounding good!"
6 hours ago
Uncle John commented on Dave Lynas's video
Thumbnail

Texas Special

"That finger is good.  It must have a good callous too."
6 hours ago
Uncle John commented on Dave Lynas's video
Thumbnail

Texas Special

"Thatcher is pretty good.  I think I hear a second instrument.   Nice LPG."
6 hours ago
Anthony Insetta posted a video
6 hours ago
Dave Lynas posted a video

Texas Special

3 string LPG Resonator with Wiggins Pickup. Headed over seas. By Davy One Finger
7 hours ago

Music

Loading…

© 2019   Created by Ben "C. B. Gitty" Baker.   Powered by

Badges  |  Report an Issue  |  Terms of Service

\uastyle>\ud/** Scrollup **/\ud.scrollup {\ud background: url("https://storage.ning.com/topology/rest/1.0/file/get/963882636?profile=original") no-repeat scroll 0 0 transparent;\ud bottom: 25px;\ud display: inline !important;\ud height: 40px;\ud opacity: 0.3 !important;\ud position: fixed;\ud right: 30px;\ud text-indent: -9999px;\ud width: 40px;\ud z-index: 999;\ud}\ud.scrollup:hover {\ud opacity:0.99!important;\ud}\ud \uascript type="text/javascript">\ud x$(document).ready(function(){\ud x$(window).scroll(function(){\ud if (x$(this).scrollTop() > 100) {\ud x$('.scrollup').fadeIn();\ud } else {\ud x$('.scrollup').fadeOut();\ud }\ud });\ud x$('.scrollup').click(function(){\ud x$("html, body").animate({ scrollTop: 0 }, 600);\ud return false;\ud });\ud });\ud \ua!-- End Scroll Up -->